---- โฆษณาตำแหน่งนี้ (หมุนวนไม่เกิน 10 อัน) เพียง 5,000/เดือน กดที่นี่เพื่อดูรายละเอียด ----
หน้าแรกมุมสมาชิกแนะนำถาม-ตอบ
ขณะนี้เป็นเวลา 05:17 ของวันที่ 23/09/2014
[ ดูกระทู้ทุกบอร์ดรวมกัน กดที่นี่ ]
*** 1 ก.พ 56 - มือถือ Truemove-H หรือ TOT (imobile3gx, iec3g) สามารถยืนยันตัวได้แล้ว โดยโทรไปหมายเลข *499297 แทน (ค่าบริการนาทีละ 9.63 บาท) ***
พบเห็น รูปไม่เหมาะสม, สิ่งผิดกฏหมาย ติดต่อผู้ดูแลเว็บ กดที่นี่เพื่อดูรายละเอียด
กีฬา, ดนตรี (หน้าที่ 1/1)
มีแทปเบสเพลงใหม่ๆมาแจกทีงับ แลกเปลียนกันก็ได้
0. Dog Man Bass Inw (0)
Mail to Dog Man Bass Inw


บริจาคเงินช่วยน้ำท่วม
ชื่อบัญชี : สภากาชาดไทยช่วยผู้ประสบอุทกภัย
เลขที่ : 045-3-04190-6
ประเภท : กระแสรายวัน
ธนาคาร : ไทยพาณิชย์
    09-05-2007, 00:47:09   [Edit message]   [ ระวังโจรหลอกขายโปร/สิ่งของ แลกกับเลขบัตรทรูมันนี่ ต้องขอเบอร์บ้านทุกครั้ง! ]
ลงเพลงใหม่ๆหน่อยนะงับ เพลงเก่าก็ได้ ขอของพวกGreen Dayก็ดีนะงับ
1. HHooPP (0)
Mail to HHooPP


    11-02-2008, 22:07:35   [Edit message]   [ ระวังโจรหลอกขายโปร/สิ่งของ แลกกับเลขบัตรทรูมันนี่ ต้องขอเบอร์บ้านทุกครั้ง! ]
InDy หวะ

Fasion Desing : Slur


intro 3Time

G--------------------------

D--------------------------

A--2/12-10-9-8-7-7--

E----------------------------



G------------------

D-----------------

A--12-10-9-8-

E------------------



ใครเดิน...

G-------------------------------------------------------------------------------

D--------------------------------------------------------------------------------

A-------------5-5-5-5-2(x8)-------------5-5-5-5-2(x8)------------------

E-5-5-5-5---------------0(x8)-5-5-5-5---------------0(x8)/12(x8)---



เทอ....แฟชั่นดีไซน์...

G------------------------------------------------------

D------------------------------------------------------

A----------2(x16)-4(x16)-5(x16)-7-8-9-10---

E-5(x16)---------------------------------------------



Solo

G---------------------------------------------------------------------------------------------------

D---------------------------------------------------------------------------------------14(x16)-

A-12(x16)---------------------------------12(x16)--------------------------------------------

E------------10(x16)-7(x16)-12(x16)------------10(x16)-7(x16)-12(x16)-----------

2. HHooPP (0)
Mail to HHooPP


    11-02-2008, 22:09:52   [Edit message]   [ ระวังโจรหลอกขายโปร/สิ่งของ แลกกับเลขบัตรทรูมันนี่ ต้องขอเบอร์บ้านทุกครั้ง! ]
มีแต่เธอ

Instru: D B G A (2times) D Bm G A D B G A


G-----------------------------------------------------------------4-4--6-6---------------------------

D-----------4-4-------------------------------4-4--5-5--7-7-------------7-7--5-5--4-4---------

A------5-5------5-5--4-4-------6-6--7-7--------------------------------------------------7-7---

E-----------------------------7-7----------------------------------------------------------------------


เล่น 4 รอบ


A A A A AA G#G# GG F#F#
ฉัน รัก รัก สุด ใจ

A A A A A A A A AA G#G# GG F#F#
ฉัน มี รัก เธอ รัก จน สุด หัว ใจ









โรคจิต


G-----------------5(x6)-6-7---------------5(x6)-6-7-----------

D--5(x6)-6-7-8------------5(x6)-6-7-8------------------------

A----------------------------------------------------------------------

E-----------------------------------------------------------------------



G-----------------------------------------------------------------------

D-----------------------------------------------------------------------

A----------------------------------------------------------------------

E-3(x12)-/-15(x6)--x15)-9-10--3(x12)-/-15(x6)--x15)-9-10-3-



โรคจิตคอยแอบมองให้เธอมีรอยยิ้ม

G-----------------------------------------------------------------------

D-----------------------------------------------------------------------

A----------------------------------------------------------------------

E-3(x12)-/-15(x6)--x15)-9-10--3(x12)-/-15(x6)--x15)-9-10-3-



เธอจะทำให้คนยิ้มได้ ทำให้ใครวุ่นวาย และเธอมันยังไม่สาย

G-----------------------------------------------------------------

D-----------------------------------------------------------------

A------------7-7--9-10-11-0--0---0-0-1-2-3---3(x7)-

E--8-9-10---------------------------------------------------



ถ้าเธอจะทำฉันขอให้เปลี่ยนใจ

G-------------------------------------------------------

D-5(x10)--7(x10)--10(x10)---------------------

A--------------------------------------------------------

E----------------------------------------------------------




G-------------------------------------------------------

D-------------------------------------------------------

A----------3(x10)----------3(x10)----------------

E-3(x10)---------3(x10)-------------------------





ไม่ทันระวังเธอช่างน่าอาย

G-----------------5(x6)-6-7---------------5(x6)-6-7-----------

D--5(x6)-6-7-8------------5(x6)-6-7-8------------------------

A----------------------------------------------------------------------

E-----------------------------------------------------------------------



โรคจิตคอยแอบมองให้เธอมีรอยยิ้ม(จบ)

G-------------------------------------------------------5(x6)-6-7---------------5(x6)-6-7-----------

D----------------------------------------5(x6)-6-7-8------------5(x6)-6-7-8------------------------

A----------3(x10)----------3(x10)--------------------------------------------------------------------

E-3(x10)---------3(x10)----------------------------------------------------------------------------






ขอความร่วมมือสมาชิกทุกท่าน งดเว้นการโพสกระทู้ หรือข้อความที่ เกี่ยวข้อง กับการเผยแพร่สิ่งที่ละเมิดลิขสิทธิ์
ไม่ว่าจะเป็นการขอเพลง MP3, การ์ตูน หรือผลงานอันมีลิขสิทธิ์อื่นๆ เนื่องจากการกระทำดังกล่าวผิดต่อกฏหมายลิขสิทธิ์ และมีบทลงโทษทางกฏหมายขั้นรุนแรง

[ Post new topic ]
--= รับสอนพิเศษ ป.5-ม.6 ทุกวิชาโดยนิสิตวิศวฯ และเศรษฐศาสตร์จุฬาฯ 087-598-2828 ปรึกษาได้ไม่แพงจ๊ะ (Keaw) =--
รับวาดรูป, รูปเหมือน, รูปล้อเลียน, กรอบรูป, ภาพวาด, ภาพเหมือน, ของขวัญ
กรุณาอย่านำข้อความหมิ่นประมาทผู้อื่นมาโพสต์กระทู้นะครับ เพราะคนโพสต์สามารถถูกฟ้องรองเอาได้นะครับ (ข้อมูลจากทางตำรวจครับ) !

[ ลงทะเบียน ] [ ดูผลการประมูล ] [ เปลี่ยนรหัสผ่าน ] [ ลืมรหัสผ่าน ] [ ดู feedback ] [ ตรวจสอบรายการประมูล ] [ เงื่อนไขในการให้บริการ ]


Jump to: